Words of Wisdom:

"I am a novice. Please give me your advise how to writte an essay" - Aimanmirza

Mystery of Emotion

  • Date Submitted: 10/11/2011 01:52 AM
  • Flesch-Kincaid Score: 68 
  • Words: 3465
  • Essay Grade: no grades
  • Report this Essay
A Prophecy tab by Asking Alexandria, www.Ultimate-Guitar.Com


WARNING: You are trying to view
content from Ultimate-Guitar.com
in an unauthorized application,
which is prohibited.

Please use an official Ultimate
Guitar Tabs application for iPhone,
iPad or Android to access legitimate
chords, guitar, bass, and drum tabs
from Ultimate-Guitar.com database.

Type "ultimate guitar tabs" in Apple
App Store's or Android Market's
search to find the application.
This is one of Asking Alexandria's best songs I think I can't believe no one has tabbed
out yet. It's an awesome song and it's pretty fun to play too. By the way, please rate
comment, it makes me feel good lol.

A Prophecy
Asking Alexandria

Tuning: Drop D

Intro:
e|-----------------------------------------------------|
B|-----------------------------------------------------|
G|-------7-9-9-9-9-7-7-10\-------1012-12-12-12-1010----|
D|--0~---x-x-x-x-x-x-x-x----0~---x-x--x--x--x--x-x-----|
A|--0~---5/7-7-7-7\5-5/8\---0~---8/10-10-10-10\8-8-----|
E|--0~----------------------0~-------------------------|

Verse: strumming
e|---------------------------------|
B|---------------------------------|
G|--10---9--10---14---12--15-------|
D|--x----x--x----x----x---x--------|
A|--8----7--8----12---10--13-------|
E|---------------------------------|...

Comments

Express your owns thoughts and ideas on this essay by writing a grade and/or critique.

  1. No comments